Guitar Tab:Hide Away Folk Family

From This Might Be A Wiki
Hide Away Folk Family
By: They Might Be Giants
Key: D Major
Year: 1986
 1    +    2    +    3    +    4    +    1    +    2    +    3    +    4    +

 D                   G                   D                   G
 D                   G                   A
 Bm                  D                   G                   E
 D                   A                   D                   G
                                                                      Hide a-
 D                   Daug5               Bm                  E
 way                           folk      family                        or   else
 D                   A                   D                   G
 someone's gonna get ya                  someone's gonna get ya        Hide a-
 D                   Daug5               Bm                  E
 way                           folk      family                   better hide a-
 D                   A                   D                   G
 way                        better hide away

 D                   G                   D                   G
 Tippy toe to   the  front     door      mother                  'cause there's a
 D                   G                   A
 guy       with a    long      long      fuse                          and  the
 Bm                  D                   G                   E
 one thing you can't hide is   all  the  fear you  feel in-  side      as   the
 D                   A                   D                   G
 fuse is   spelling  out           these words

 D                   C                   D                   C         Bb
 Hello,              this  is   Leslie   Down       with the daily     home
 D                   C                   D                   C         Bb
 astrology         report                Taurus:             contemplate
 D                   C                   D                   C         Bb
 domestic turmoil                       Aquarius:           abandon   hope for
 D                   C                   Bb
 future            plans

 1    +    2    +    3    +    4    +    1    +    2    +    3    +    4    +


Intro
e----------------------------------------------------
B----------------------------------------------------
G---------------------------------------------7-7-6--
D-----------4----------------------------4-4---------
A-5-5-5-5-7----5----5--------------5-5-7-------------
E-----------------7------5-5-5-5-7-------------------

-----------------------------------------------------
-----------------------------------------------------
----------4-4----------------------------------------
--7-7-7-7-----7-4-4-7---------------------4----------
----------------------7-5-7---5-------5-5---7--5-5---
----------------------------7-----5-7----------------