Guitar Tab:Hearing Aid

From This Might Be A Wiki
Hearing Aid
By: They Might Be Giants
Key: D Major
Year: 1990
Tabbed By: JJRRutgers
Hearing Aid

e-12h14-12----12-14----------------------------------------------------------------
B----------15-------15--15-14-12-14-15---------------------------------------------
G--------------------------------------14-12p11h12p11h12--12p11h12p11h12p11h12-----
D----------------------------------------------------------------------------------
A----------------------------------------------------------------------------------
E----------------------------------------------------------------------------------

e---14-12----12-14-----------------------------------------------------------------
B---------15--------15--15-14-12-14-15---------------------------|triplets|x5------
G--------------------------------------14---12-11-12-14-11-12-14--11-12-14----11---
D-------------------------------------------------------------------------------14-
A----------------------------------------------------------------------------------
E----------------------------------------------------------------------------------

e-------------------------------------------------------
B--12---------------------------------------------------
G-------14----------------------------------------------
D-------------------------------------------------------
A-------------------------------------------------------
E-------------------------------------------------------

D     A     Bm
D     A     G
D     A     G     D     A    C

Em     G        A      C
    Frosty the supervisor
Em     G        A      
    Lives by himself
Em     G           A         C 
    Sometimes I feel sorry for him
Em        G       A      
    Usually I can't
Em                     G
     I've turned off my hearing aid
        F#m      C#m      C                       
Don't say the electric chair's not 
  Em               G                   F#m       C#m    C
good enough  For king-lazy-bones like myself

(A-D-B-A-F#)

Em         G         A     C
    More coffee for me boss
Em                      G              A
    'Cause I'm not as messed up as I want to be
Em                     G
    I've turned off my hearing aid
        F#m    C#m       C       
Don't say the electric chair's not
Em                 G                   F#m        C#m    C 
good enough For king-lazy-bones like myself
   G         A
Because  Because


D     A     Bm
D     A     G
D     A     G     D     A    C
D     G     A     :|

Transcribed by John J. Ryan (JJRRutgers@hotmail.com)
Confirmed by John Linnell