Guitar Tab:Hearing Aid

From This Might Be A Wiki
Hearing Aid
By: They Might Be Giants
Key: D Major
Year: 1990
Tabbed By: JJRRutgers
Hearing Aid

e12h14-12----12-14------10-9-----9-10-------------------------------
B---------15--------15-------12-------10---8-7-8-7-8-8-7-8-7-8-7-8-
G-------------------------------------------------------------------
D-------------------------------------------------------------------
A-------------------------------------------------------------------
E-------------------------------------------------------------------

e---14-12----12-14------10-9-----9-10----------------------------------
B---------15--------15-------12-------10---8-7-8-10-7-8-10-7-8-10-7-8-10
G----------------------------------------------------------------------
D----------------------------------------------------------------------
A----------------------------------------------------------------------
E----------------------------------------------------------------------

e-------------------------------------------------------
B-7-8-10-7-8-10-7-8-10-7-5-------------12--10-----------
G-------------------------------------------------------
D-------------------------------------------------------
A-------------------------------------------------------
E-------------------------------------------------------

D     A     Bm
D     A     G
D     A     G     D     A    C

Em     G        A      C
    Frosty the supervisor
Em     G        A      
    Lives by himself
Em     G           A         C 
    Sometimes I feel sorry for him
Em        G       A      
    Usually I can't
Em                     G
     I've turned off my hearing aid
        F#m      C#m      C                       
Don't say the electric chair's not 
  Em               G                   F#m       C#m    C
good enough  For king-lazy-bones like myself

(A-D-B-A-F#)

Em         G         A     C
    More coffee for me boss
Em                      G              A
    'Cause I'm not as messed up as I want to be
Em                     G
    I've turned off my hearing aid
        F#m    C#m       C       
Don't say the electric chair's not
Em                 G                   F#m        C#m    C 
good enough For king-lazy-bones like myself
   G         A
Because  Because


D     A     Bm
D     A     G
D     A     G     D     A    C
D     G     A     :|

Transcribed by John J. Ryan (JJRRutgers@hotmail.com)
Confirmed by John Linnell