Bass Tab:I'm Impressed

From This Might Be A Wiki
I'm Impressed
By: They Might Be Giants
Key: D Minor
Year: 2007
Tabbed By: Wood Thrush
The song is based around this sequence of quarter notes.

G----------------------------------|
D--0-0-0-0-------------------------|
A----------3-3-3-3-2-2-2-2-2-2-2-2-|
E----------------------------------|

G----------------------------------|
D------------------3-3-3-3---------|
A--1-1-1-1-1-1-1-1-----------------|
E--------------------------3-3-3-3-|