Guitar Tab:Super Cool

From This Might Be A Wiki
Super Cool
By: They Might Be Giants
Key: B Minor
Year: 2021

Intro riff over Bm:

e|--------------7-------9---7-------9---7----------|
B|-7-8-9---10-------------------------------10---9-|

e|--------------7------9---7-------9---10---9---7-|
B|-7-8-9---10-------------------------------------|


Bm             Bdim/G#
When you come around
  Bm              Bdim/G#
I hide my face in hyperspace
Bm            Bdim/G#
When you come around
    Bm            F#/C#
I'm no foot tall against the wall

Em               A7
But then I found just the place
Em                  A7
Up a story from the drugstore
Em                      A7
Working hard to just convince myself
Em                    A7
How to lose it on the dance floor

    D         Dm
Super cool (Cool)
    Em        A
Super cool (Cool)
    F         Em
Super cool (Cool)
    F         G
Super cool (Cool)

(backwards electronic bagpipe reverb chamber riff also over Bm)
over both instrumental sections a rhythm guitar & bass play:

A|-2-2---2-5------|-2-2---2-5------|-2-2---2-5------|-2-2---2-5------|
E|----------------|----------------|----------------|----------------|  x2

after this particular instrumental only, the bass & keyboard do a 2 bar interlude:

A|-2----2----2----|-0--------------|
E|----------------|------3----2----|

Bm
If you break it down
Bm
Swim in the sea of reverie
Bm
If you break it down
Bm 
All the fear has disappeared

Em                  A7
That sweet day I forget it all
Em                         A7
And stop searching for the trapdoor
Em                       A7
I'll come back here to remind myself
Em                       A7
Of when I lost it on the dance floor

    D         Dm
Super cool (Cool)
    Em        A
Super cool (Cool)
    F         Em
Super cool (Cool)
    F         G
Super cool (Cool)

Riff over Bm:

e|--------------7-------9---7-------9---7----------|
B|-7-8-9---10-------------------------------10---9-|

e|--------------7------9---7-------9---10---9---7-|
B|-7-8-9---10-------------------------------------|

    D         Dm
Super cool (Cool)
    Em        A
Super cool (Cool)
    F         Em
Super cool (Cool)
    F         G
Super cool (Cool)