Bass Tab:When Will You Die

From This Might Be A Wiki
When Will You Die
By: They Might Be Giants
Key: A Major
Year: 2011
Tabbed By: sapphirebullets

G-|----------------|-----17------------------------------|----------------|--------------|
D-|-----19------19-|17-19--19-17-----17------------------|-----19------19-|--------------|
A-|----------------|------------19-17--19-17-15----------|----------------|--------------|
E-|17-17---17-17---|---------------------------17-15--17-|17-17---17-17---|17------------|

G-|------------|------------|-----------|-------------|
D-|-----17-----|-----17-----|------9----|-------------|
A-|------------|------------|--------9--|7-7-7-7-7----|
E-|15-15-------|15-15-------|7----7-7-7-|-------------|

I'm so tired...
G-|-----------|-----------|-----------|--------------|
D-|----7------|-------7---|-----------|--------------|
A-|-------7---|----5------|----7--5---|------7---7---|
E-|-----------|-----------|-----------|7----7--------|

Are there crimes... 
G-|---------------|-------------|---------------|-------------|
D-|---------------|-----------9-|5----x-5-7-9-5-|---------9---|
A-|5----x-5-7-9-5-|--------5-9--|---------------|7----7-7--7--|
E-|---------------|7----x-7-----|---------------|-------------|

You're insane...
G-|-----------|-----------|-----------|-------------|
D-|----7------|-------7---|-----------|-------------|
A-|-------7---|----5------|----7--5---|--------7/---|
E-|-----------|-----------|-----------|7-7----7-----|

But there's one thing...
G-|---------------|----------------|-----------|-------------|
D-|---------------|----------------|----7------|--------7----|
A-|5----x-5-7-9-5-|----5-6-7---7---|-------7---|5-----5------|
E-|---------------|7-9-------------|-----------|-------------|

Schoolchildren... 
G-|---------------|---------6-----2-|-----------------|6-6-------9------|
D-|4-------4------|4------4--4-4----|---------------6-|--------6--6-9-6-|
A-|------4------4-|-----------------|4------4-4-------|-----------------|
E-|---------------|-----------------|-----------------|-----------------|

Each year...
G-|------------------|7--9--7------| --------7----|-----------------|
D-|----------------7-|-7--7--7---7-|9------9---9--|------------9----|
A-|5-----5-5---------|---------7---|-----9------9-|7-7-----7-7---7--|
E-|------------------|-------------|---7----------|-----------------|

I know how... 
G-|-----------|-----------|-----------|--------------|
D-|----7------|-------7---|-----------|--------------|
A-|-------7---|----5------|----7--5---|------7-----7-|
E-|-----------|-----------|-----------|7-7--7--------|

For the one...
G-|---------------|--6-7-8-9-------|-----------|----------------|
D-|---------------|9---------9-6---|----7------|----------------|
A-|5----x-5-7-9-5-|--------------7-|-------7---|5---5---7---7---|
E-|---------------|----------------|-----------|----------------|

[Guitar Solo]
G-|---------------|-----------6--|--------------|9----6-9---6----|
D-|4------4-4-----|4-----4-4-7-7-|------------6-|--6---------6---|
A-|-------------4-|--------------|4-----4-4-----|--------------7-|
E-|---------------|--------------|--------------|----------------|

G-|---------------|11-9-7---------|----------------|---------------|
D-|-------------7-|------7--------|9---9---9-7-6---|--------14\----|
A-|5------5-5-----|----------9--9-|--------------9-|7---7/-----14/-|
E-|---------------|-----------10--|----------------|---------------|

This is Dan...
G-|-----------|-----------|-----------|----------------|
D-|----7------|-------7---|-----------|----------------|
A-|-------7---|----5------|----7--5---|--------7-9-11/-|
E-|-----------|-----------|-----------|7-7---7---------|

And I'm John...
G-|---------------|-------------|---------------|--------------|
D-|---------------|-----------9-|5----x-5-7-9-5-|9-------------|
A-|5-5--x-5-7-9-5-|--------5-9--|---------------|--9-6-------6-|
E-|---------------|7----x-7-----|---------------|-----7--------|

Still you live... 
G-|-----------|-----------|-----------|--------------|
D-|----7------|-------7---|-----------|--------------|
A-|-------7---|----5------|----7--5---|------7-----7-|
E-|-----------|-----------|-----------|7-7--7--------|

I'd be counting... 
G-|---------------|----------------|-----------|----------------|
D-|---------------|----------------|----7------|----------------|
A-|5----x-5-7-9-5-|----5-6-7---7---|-------7---|5---5---7---7---|
E-|---------------|7-9-------------|-----------|----------------|

On that promised morning... 
G-|------------------|----------------|----------------|----------------|
D-|------------------|7------/9-------|----------------|----------------|
A-|5------5-7------7-|----------------|5------/7-------|----------------|
E-|------------------|----------------|----------------|5------/7-------|

Knowing that your... 
G-|-----------------|-----------------|----------------|----------------|--------9-------|
D-|-----------------|7------7-9-----9-|5---5---5-4-5-4-|9---9---9-------|----------9-----|
A-|5------5-7-----7-|-----------------|----------------|----------9-6---|7---7-------7---|
E-|-----------------|-----------------|----------------|--------------7-|----------------|

We'll exhale...
G-|-----------|-----------|-----------|----------------|
D-|----7------|-------7---|-----------|----------------|
A-|-------7---|----5------|----7--5---|--------7-9-11/-|
E-|-----------|-----------|-----------|7-7---7---------|

We'll be lining up...
G-|---------------|-------------|---------------|--------------|
D-|---------------|-----------9-|5----x-5-7-9-5-|9-------------|
A-|5-5--x-5-7-9-5-|--------5-9--|---------------|--9-6-------6-|
E-|---------------|7----x-7-----|---------------|-----7--------|

You're insane...
G-|-----------|-----------|-----------|----------------|
D-|----7------|-------7---|-----------|----------------|
A-|-------7---|----5------|----7--5---|--------7/---\--|
E-|-----------|-----------|-----------|7-7---7---------|

And the only way to mitigate...                        ... When are you going to
G-|---------------|----------------|----------11-------|------------------------|
D-|---------------|------------6---|-------12----12----|---11-12-13-14----------|
A-|5----x-5-7-9-5-|----5-6-7-9---7-|5/--------------12-|14-------------14-11----|
E-|---------------|7-9-------------|-------------------|---------------------12-|

die? Look me in the eye, tell me when you'll
G-|-----------------|-----------------|
D-|-----------7-4---|------------14---|
A-|5------5-5-----5-|----5-6-7/-------|
E-|-----------------|7-9--------------|

die.
G-|----------------|----------------|----------------|--------------|
D-|-----19------19-|----------------|-----19------19-|--------------|
A-|----------------|----------------|----------------|--------------|
E-|17-17---17-17---|----------------|17-17---17-17---|17\-----------|

G-|------------|------------|---------------|---------------||
D-|-----17-----|-----17-----|---------------|7-7-7-7-7------||
A-|------------|------------|7------7-7---7-|---------------||
E-|15-15---15--|15-15-------|-----------7---|---------------||