Guitar Tab:Where Your Eyes Don't Go

From This Might Be A Wiki
Where Your Eyes Don't Go
By: They Might Be Giants
Key: C Major
Year: 1988
 1    +    2    +    3    +    4    +    1    +    2    +    3    +    4    +

 [Convention: each chord is two beats/half a measure.  A dash indicates that
  the chord is held for another two beats; two chords with a slash between
  them are held for one beat/a quarter of a measure each.
  Don't ask me how to play this.]

 Chord Foramations
   E  Am G  C  F  A  Bb Ab Bb Cm Eb Fm Gm
e|-0--0--3--0--1--0--1--4--6--8--6--1--3--|
B|-0--1--3--1--1--2--3--4--6--8--8--1--3--|
G|-1--2--0--0--2--2--3--5--7--8--8--1--3--|
D|-2--2--0--2--3--2--3--6--8--10-8--3--5--|
A|-2--0--2--3-----0--1--6--8--10-6--3--5--|
E|-0-----3--------------------------------|

 Intro:
 E Am E Am/G
 
 1.
 |: C             F               G                A 
      Where your eyes don't go a filthy scarecrow waves his broomstick
  Bb               G        Am                F   /   G :|
 arms and does a parody of each unconscious thing you do
 when you turn around to look it's gone behind you - on its face
 it's wearing your confused expression - where your eyes don't go
 
 Chorus:
 Ab            Bb              Cm            Ab / Bb
   Where your eyes don't go a part of you is hovering
 Eb        Fm                    Gm         Ab / Bb
   it's a nightmare that you'll never be discovering
         Eb            Eb+aug5    Eb+6          Eb+7
 you're free to come and go or talk like Kurtis Blow
                Ab     Ab+6   Ab+maj7        Ab
 but there's a pair of eyes in back of your head
 
 2.
 Every jumbled pile of person has a thinking part that
 wonders what the part that isn't thinking isn't thinking of
 should you worry when the skull head is in front of you - or
 is it worse because it's always waiting - where your eyes don't go
 
 (Chorus)
 
 Instrumental:
 Eb Ab Bb C
 Db Bb Cm Ab/Bb
 
 (Repeat verse 1)
 
 Coda:
 |: Am Am+maj7 Am+dom7 Am+6
 Dm Bb Bm E
 A A+aug5 A+6 A+7
 D - B E :|

e-7-8------7-8----7-8-10-12-13-12-13----10-12-10-12-10--9----9--
B-----9-10-----10--------------------14-------------------12----
G---------------------------------------------------------------
D---------------------------------------------------------------
A---------------------------------------------------------------
E---------------------------------------------------------------

e-10-9----12-10-9----12-10-9-10-9------------9------------------
B------10---------10-----------------9-10-12---12-10-9-10-12-13-
G---------------------------------11----------------------------
D---------------------------------------------------------------
A---------------------------------------------------------------
E---------------------------------------------------------------
 1    +    2    +    3    +    4    +    1    +    2    +    3    +    4    +