Guitar Tab:No! (Song)

From This Might Be A Wiki
No! (Song)
By: They Might Be Giants
Key: C Major
Year: 2002
Chorus:  G A D
       E-------
       B-------
       G-----7-
       D-5-7-7-
       A-5-7-5-
       E-3-5---

Verse 1:
No is no
No is always no
If they say no, it means a thousand times
No!

E----------------------|
B----------------------|
G--5-----2-------------|
D-5-3---2-0----3-2-----|
A-------------3-2---5--|
E------------------5-3-|

Verse 2:
No plus no equals no
All no's lead to no no no!

E-------------------------------------|
B---10-12-13--------------------------|
G---------------10-12-14----7-9-10----|
D-----------------------------------9-|
A-------------------------------------|
E-------------------------------------|

E----------------------|
B----------------------|
G--5-----2-------------|
D-5-3---2-0----3-2-----|
A-------------3-2---5--|
E------------------5-3-|

Chorus 1:
G        C        D        C
Finger pointing, eyebrows low
D             G            D      C
Mouth in the shape of the letter "O"

Verse 3:
Pardon me -- No!
Excuse me -- No!
May I stay?
Can I go?
No, No, No!


E----------------------|
B----------------------|
G--8-----5-------------|
D-8-6---5-3----6-5-3---|
A-------------6-5-3-1--|
E----------------------|

Verse 4:
Do this -- No!
Don't do that -- No!
Sit, stay, roll over
No, No, No!


E----------------------------------------|
B---13-15-16-----------------------------|
G---------------13-15-17----10-12-13-----|
D-------------------------------------12-|
A----------------------------------------|
E----------------------------------------|


E----------------------|
B----------------------|
G--8-----5-------------|
D-8-6---5-3----6-5-3---|
A-------------6-5-3-1--|
E----------------------|


E----------------------------------------|
B---13-15-16-----------------------------|
G---------------13-15-17----10-12-13-----|
D-------------------------------------12-|
A----------------------------------------|
E----------------------------------------|

Chorus 2:
Bb      F         Eb       F
Finger pointing, eyebrows low
Eb             F           Eb
Mouth in the shape of the letter "O"
Bb         F    Eb      F
Red means stop. Do not go.
Eb  F   Bb
No. No. No!