Guitar Tab:No! (Song)

From This Might Be A Wiki
No! (Song)
By: They Might Be Giants
Key: C Major
Year: 2002
Verse 1:
No is no, no is always no
If they say no, it means a thousand times no


E----------------------|
B----------------------|
G--5-----2-------------|
D-5-3---2-0----3-2-----|
A-------------3-2---5--|
E------------------5-3-|
  C F  Am G   F Em D G


Verse 2:
No plus no equals no
All no's lead to no no no!

E---------------------------------------------|
B---10-12-13----------------------------------|
G---------------10-12-14----------------------|
D---------------------------12-14-15----------|
A------------------------------------------14-|
E---------------------------------------------|


E----------------------|
B----------------------|
G--5-----2-------------|
D-5-3---2-0----3-2-----|
A-------------3-2---5--|
E------------------5-3-|
  C F  Am G   F Em D G


Chorus 1:
C        G/D     C/E       F
Finger pointing, eyebrows low
G            F/A          G/B     C
Mouth in the shape of the letter "O"


Verse 3:
Pardon me -- No!
Excuse me -- No!
May I stay?
Can I go?
No, No, No!


E----------------------|
B----------------------|
G--8-----5-------------|
D-8-6---5-3----6-5-3---|
A-------------6-5-3-1--|
E----------------------|
 Eb Ab Cm Bb Ab Gm Fm Bb


Verse 4:
Do this -- No!
Don't do that -- No!
Sit, stay, roll over
No, No, No!

E----------------------------------------|
B---13-15-16-----------------------------|
G---------------13-15-17-----------------|
D---------------------------15-17-18-----|
A-------------------------------------17-|
E----------------------------------------|


E----------------------|
B----------------------|
G--8-----5-------------|
D-8-6---5-3----6-5-3---|
A-------------6-5-3-1--|
E----------------------|
 Eb Ab Cm Bb Ab Gm Fm Bb


Chorus 2:
Eb     Bb        Eb       Ab
Finger pointing, eyebrows low
Eb           Ab           Eb/G    Bb
Mouth in the shape of the letter "O"
Eb        Bb/D  Eb7/Db  Ab
Red means stop. Do not go.
Bb      Eb
No. No. No!