Guitar Tab:Brainwashing Our Fighting Boys

From This Might Be A Wiki
Brainwashing Our Fighting Boys
By: They Might Be Giants
Key:
Year: ?
Tabbed By: CapitalQ
Here's the solo from the unreleased Dial-A-Song classic
(and favorite of mine). It begins 45 seconds into the song. :)

E|--6---6-6--8---8-8---10--10---11-10-8-6------
B|-8--8--8--8--8--8--8----8---------------9-8-6
G|---------------------------------------------
D|---------------------------------------------
A|---------------------------------------------
E|---------------------------------------------

E|--6---6-6--8---8-8---10--10---13-11-8-6------
B|-8--8--8--8--8--8--8----8---------------9-8-6
G|---------------------------------------------
D|---------------------------------------------
A|---------------------------------------------
E|---------------------------------------------