Guitar Tab:Another First Kiss

From This Might Be A Wiki
Another First Kiss
By: They Might Be Giants
Key: A Major
Year: 2001
Intro: A D A D

C    G                F       G
I'm asleep but she's talking to me
C              G             F         G
She's walking 'round wearing all of my clothes
   C        Em     F         G
As she runs out of things to say
    C        Em      F    G
And grabs my coat to walk away

Chorus:
F           G      C            Em
"How 'bout another first kiss?" She said
F           G      C            Em
"How 'bout another first kiss?" I said
F       G      Am              D/F#
I want another first kiss like this
F          G      C
How 'bout another first kiss?

    E        A              D
e|--------------------------------2------
B|----------------5-2---------------2----
G|--2-4-2-4--2-4-2---4-2----2-4-2-----4-2
D|---------------------------------------
A|---------------------------------------
E|---------------------------------------

C     G               F    G
Other people were too sentimental
C          G        F           G
And always worrying about their hair
    C        Em      F     G
Got tired of wasting all my time
    C       Em   F      G
Now I'm not worrying at all

Chorus

Solo:
    E        A              D               A           E
e|--------------------------------2--------------------------------------
B|----------------5-2---------------2------------5-2---------------------
G|--2-4-2-4--2-4-2---4-2----2-4-2-----4-2---2-4-2---4-2--2--1-1--2-1-----
D|-------------------------------------------------------------4-----4-2-
A|-----------------------------------------------------------------------
E|-----------------------------------------------------------------------

    F#m      A              D               A            E
e|--------------------------------2-------------------------------------
B|----------------5-2---------------2------------5-2--------5---------5-
G|--2-4-2-4--2-4-2---4-2----2-4-2-----4-2---2-4-2---4-2--1-2--1-2-4--1--
D|----------------------------------------------------------------------
A|----------------------------------------------------------------------
E|----------------------------------------------------------------------

C         G              F      G
You could tell me, "We belong together"
C           G                F         G
And I could tell you, "You belong with me"
    C         G      F         G
But we've run out of things to say
    C        G     F  Fm7
And we'll be happy anyway, so

Chorus

    E
e|-----------
B|-------5---
G|--2-4-2--2-
D|-----------
A|-----------
E|-----------

Chorus