Guitar Tab:AKA Driver

From This Might Be A Wiki
AKA Driver
By: They Might Be Giants
Key: D Minor
Year: 1994
Chorus:
             Dm                Bb               Dm                F
It's just a full day's drive away; it's just a full day's drive away
             Dm                Bb               A                 F  /  E
it's just a full day's drive away; it's just a full day's drive away

G           -               A       -
  We can fly like birds in the air
G            -                A           F  /  E
  we could walk but we'd never get there

Chorus

G            -       A            -
  Big hand's on one-twenty,   little hand's on E

 D / F#    G / A          D  /  Em       G  /  A
Hey NyQuil driver - it's NyQuil drivin' time
 D / F#    G / A     D    /    Em       F#                -
hey NyQuil driver - get out of my lane, get out of my way

Instrumental (same as Chorus)

Chorus

|: D / F#    G / A          D  /  Em       G  /  A
  Hey NyQuil driver - it's NyQuil drivin' time
 D / F#    G / A     D    /    Em       F#                -  G  - :|
hey NyQuil driver - get out of my lane, get out of my way

Hey NyQuil driver - it's NyQuil drivin' time
hey NyQuil driver - get out of my lane, get out of my way

Chorus x2

solo/bridge
e---------------------------------------------------2-2-2-2--2-2-2-2--|
b---------------------------------------------------3-3-3-3--3-3-3-3--|
g---------------------------------------------------2-2-2-2--2-2-2-2--|
d0-0-1-0-000-0-1---------------0-0-1-0-000-0-1------------------------|
a----------------1111-1-1111-1(ones)----------------------------------|
e----------------------------------------------22-22(twos)------------|

e9------------------2-|
b-10----------------3-|
g--10---------------2-|
d----11-12-11--\\\----|
a--------------\\\----|
e--------------\\\----|
          (pick slide)