Bass Tab:Till My Head Falls Off

From This Might Be A Wiki
Till My Head Falls Off
By: They Might Be Giants
Key: C Major
Year: 1996
G---||------------------------------------------------------0-----------
D---||*-----------2--5--5--5--------2--3--2--3--2--3--2--3-----3--2-----
A---||*--3--3--3--------------------------------------------------------
E---||------------------------------------------------------------------
                                                                        

                         Main Riff and Chorus                           
G------------0-----------------------------0--2--0--2--0----------------
D---3--2--3-----3--2-----------2--5--5--5-----------------2--3--2--3----
A---------------------3--3--3-------------------------------------------
E-----------------------------------------------------------------------
                                                                        

                                                                        
G---------0-----------0---||--------------------------------------------
D---2--3-----3--2--3-----*||--------------------------------------------
A------------------------*||--3--3--3--3--2--2--2--2--------------------
E-------------------------||--------------------------------------------
                                                                        

    Pre-Pre-Chorus: "Why do Main Riff again                             
G------------------------|--------------------------|-------------------
D------------------------|--------------------------|-------------------
A------------------------|--------------------------|-------------------
E---3--3--3--3--1--1--1--|--------------------------|--3--3--3--3--1----
                                                                        

                                        Main riff                       
G------------------------------------|-----------------|----------------
D------------------------------------|-----------------|----------------
A------------------------------------|-----------------|--3-------------
E---1--1--1--3--3--3--3--1--1--1--1--|-----------------|----------------
                                                                        

    "And I won't be...      One again, The main riff                    
G------------------------|--------------------------------|-------------
D------------------------|--------------------------------|-------------
A---3--1--1--3--3--------|--------------------------------|-------------
E------------------3--3--|--------------------------------|-------------
                                                                        

    You can pretty much pick up the rhythm                               
G-----------------------------------------------------------------------
D-----------------------------------------------------------------------
A-----------------------------------------------------------------------
E-----------------------------------------------------------------------
                                                                        

    of things now                                            solo       
G---------------------|-------------------------------------------------
D---------------------|-----------------------3--3--3--3--1--1--1--1----
A---------------------|--2--3--3--3--2--3--3----------------------------
E---------------------|-------------------------------------------------
                                                                        

                                                                        
G------------------------------------------------|----------------------
D---------------------------6--6--6--6--5--5--5--|----------------------
A---4--5--5--5--4--5--5--5-----------------------|----------------------
E------------------------------------------------|----------------------