Bass Tab:Exquisite Dead Guy

From This Might Be A Wiki
Exquisite Dead Guy
By: They Might Be Giants
Key: E Major
Year: 1996
During "Ba ba da ba ba ba da ba":
D-------------------------
G-------------------------
B-7--4--------------------
E-------5--2--7--5--4--5-7

During "How'm I s'posed to let you know the way I feel about you?":
D-------------------------
G----------------1--------
B-2-----------------------
E-----5----2--------------