Guitar Tab:Feel Good Sublet

From This Might Be A Wiki
Feel Good Sublet
By: They Might Be Giants
Key:
Year: 1997
Tabbed By: No Mo
  "it's the..."
e---------------------------------------------------------------|
B---------------------------------------------------------------|
G-----------2-2-1-1-----------2-2-2-2-1-------------2-2-2-1-1---|
D---------2---------2-------2-----------2-4-------2-----------2-|
A-------2-----------------2---------------------2---------------|
E-2-2-2---------------2-2-------------------2-2-----------------|

                         "feel good sublet......"
e---------------------------------------------------------------|
B---------------------------------------------------------------|
G-------2-2-2-2-2-1-----------2-2-1-1-----------2-2-2-2-1-------|
D-----2-------------4-2-----2---------2-------2-----------2-4---|
A---2---------------------2-----------------2-------------------|
E-2---------------------2---------------2-2---------------------|

                                              "killer sublet..."
e---------------------------------------------------------------|
B---------------------------------------------------------------|
G-------2-2-2-1-1---------2-2-2-2-2-1---------------------------|
D-----2-----------2-----2-------------4-2-----------------------|
A---2-----------------2------------------------2-4-2-0--2-4-2-0-|
E-2-----------------2-------------------------------------------|

                    "four flights up and...."
e---------------------------------------------------------------|
B---------------------------------------------------------------|
G---------------------------------------------------------------|
D---------------------------------------------------------------|
A-2-4-2-0-4-2-0-2---2-4-2-0--2-4-2-2-0--2-4-2-0-4-2-0-2---------|
E---------------------------------------------------------------|

  "if you only....."
e---------------------------------------------------------------|
B---------------------------------------------------------------|
G-------2-2-1-------1-------2-----------------------------------|
D-----2-------4-2-4-------2---2---------------------------------|
A---2-------------------2---------------------------------------|
E-2-------------------2-----------------------------------------|