Guitar Tab:Space Suit

From This Might Be A Wiki
Space Suit
By: They Might Be Giants
Key: A Major
Year: 1992
Tabbed By: Spiraling Shape
Here it is.  The timing's not perfect, but all the notes are right.  Just listen to the song, it's not too hard :)

e-0--||33-3-320-2-3h5-3-202-||
B-0--||---------------------||
G-2--||---------------------||
D-2--||---------------------||
A-0--||---------------------||
E----||---------------------||
     4x                     1x, then repeat from the beginning

e-0--|0-0-00|0--|0-0-00|2--|2-2-22|2--|2-2-22|
B-0--|0-0-00|0--|0-0-00|2--|2-2-22|3--|3-3-33|
G-2--|2-2-22|0--|0-0-00|2--|2-2-22|2--|2-2-22|
D-2--|2-2-22|2--|2-2-22|4--|4-4-44|0--|0-0-00|
A-0--|0-0-00|2--|2-2-22|4--|4-4-44|---|------|
E----|------|0--|0-0-00|2--|2-2-22|---|------|

e-1--|1-1-11|1--|1-1-11|2--|2-2-22|2--|2-2-22|
B-3--|3-3-33|3--|3-3-33|4--|4-4-44|4--|4-4-44|
G-3--|3-3-33|3--|3-3-33|4--|4-4-44|4--|4-4-44|
D-3--|3-3-33|3--|3-3-33|4--|4-4-44|4--|4-4-44|
A-1--|1-1-11|1--|1-1-11|2--|2-2-22|2--|2-2-22|
E----|------|---|------|---|------|---|------|

e-0--||33-3-320-2-3h5-3-202-||
B-0--||---------------------||
G-2--||---------------------||
D-2--||---------------------||
A-0--||---------------------||
E----||---------------------||
Play this thing again, same as the beginning

e-0--|0-0-00|0--|0-0-00|2--|2-2-22|2--|2-2-22|
B-0--|0-0-00|0--|0-0-00|2--|2-2-22|3--|3-3-33|
G-2--|2-2-22|0--|0-0-00|2--|2-2-22|2--|2-2-22|
D-2--|2-2-22|2--|2-2-22|4--|4-4-44|0--|0-0-00|
A-0--|0-0-00|2--|2-2-22|4--|4-4-44|---|------|
E----|------|0--|0-0-00|2--|2-2-22|---|------|

e-1--|1-1-11|1--|1-1-11|2--|2-2-22|2--|2-2-22|
B-3--|3-3-33|3--|3-3-33|4--|4-4-44|4--|4-4-44|
G-3--|3-3-33|3--|3-3-33|4--|4-4-44|4--|4-4-44|
D-3--|3-3-33|3--|3-3-33|4--|4-4-44|4--|4-4-44|
A-1--|1-1-11|1--|1-1-11|2--|2-2-22|2--|2-2-22|
E----|------|---|------|---|------|---|------|
Then that whole thing again, same as the first time

e-0--||33-3-320-2-3h5-3-202-||
B-0--||---------------------||
G-2--||---------------------||
D-2--||---------------------||
A-0--||---------------------||
E----||---------------------||
This again...

e-0-0-0|0-0-0|2-2-2|2-2-2|3-3-3|3-3-3|
B-0-0-0|0-0-0|2-2-2|2-2-2|3-3-3|3-3-3|
G-2-2-2|2-2-2|4-4-4|4-4-4|5-5-5|5-5-5|
D-2-2-2|2-2-2|4-4-4|4-4-4|5-5-5|5-5-5|
A-0-0-0|0-0-0|2-2-2|2-2-2|3-3-3|3-3-3|
E------|-----|-----|-----|-----|-----|
                         Slow down here

e-0--||
B-0--||
G-2--||
D-2--||
A-0--||
E----||
Hold this out for the end