Guitar Tab:L M N O

From This Might Be A Wiki
L M N O
By: They Might Be Giants
Key: G Minor
Year: 2005
Tabbed By: Pat
There's not actually any guitar in this song, but you can play the keyboard part.

Main riff:
e|-----------------------|
B|-----------------------|
G|-----------------------|
D|-----------------------|
A|---1-3-5-3-1---1-3-1---|
E|-3-----------3-------3-| x4

L, LM, LMN, LMNO:
e|----------|-------------|--------------|------------------|
B|----------|-------------|--------------|------------------|
G|----------|-------------|--------------|------------------|
D|----------|-------------|--------------|------------------|
A|---1-3-5--|---1-3-5--5--|---1-3-5-5-5--|---1-3-5-5-5-5-5--|
E|-3--------|-3-----------|-3------------|-3----------------|

Chimes part:                   OR alternatively:
e|------------------------|    e|------------------------|
B|------------------------|    B|------------------------|
G|------------------------|    G|-----0-2-0-------0------|
D|---3-5-7-5-3---3-5-3----|    D|-0-3-------3-0-3---3-0--|
A|-5-----------5-------5--|    A|------------------------|
E|------------------------| x4 E|------------------------| x4


Then the main riff again:
e|-----------------------|
B|-----------------------|
G|-----------------------|
D|-----------------------|
A|---1-3-5-3-1---1-3-1---|
E|-3-----------3-------3-| x4

Then this again, slightly different:
e|----------|-------------|--------------|------------|
B|----------|-------------|--------------|------------|
G|----------|-------------|--------------|------------|
D|----------|-------------|--------------|------------|
A|---1-3-5--|---1-3-5--5--|---1-3-5-5-5--|-5-5-5-5-5--|
E|-3--------|-3-----------|-3------------|------------|

Chimes again:                   OR alternatively:
e|------------------------|    e|------------------------|
B|------------------------|    B|------------------------|
G|------------------------|    G|-----0-2-0-------0------|
D|---3-5-7-5-3---3-5-3----|    D|-0-3-------3-0-3---3-0--|
A|-5-----------5-------5--|    A|------------------------|
E|------------------------| x4 E|------------------------| x4