Guitar Tab:In The Middle, In The Middle, In The Middle

From This Might Be A Wiki
In The Middle, In The Middle, In The Middle
By: They Might Be Giants
Key: A Major
Year: 2002

(For the transposed John Flansburgh / Avatars of They live version in D Major, capo 5th fret)

Intro, played twice:
E|-------------------------------------------------------------------------------------|
B|----10-------------------------------------------------------------------------------|
G|9--------9--------11-11--------------------------------------------------------------|
D|-------------11---------12-12-9-9-------9-9------------------------------------------|
A|----------------------------------11-11------------------------9-10-12-12-12-12-12---|
E|---------------------------------------------12-12-12-12-12-12-----------------------|

      A         F#m           Bm7           E   
Don't cross the street in the middle in the middle
       Bm7           E             A  
In the middle in the middle in the middle of the block
      A         F#m           Bm7           E   
Don't cross the street in the middle in the middle
       Bm7           E             A  
In the middle in the middle in the middle of the block

A   B7    E
 Use your eyes to look up!
A   B7    E
 Use your ears to hear!
A    B7  G#m    C#m
 Walk up to the corner 
F#7      B7       E
when the coast is clear
        E7
And wait
        E7
And wait
   E7    
Until you see the light turn green

      A         F#m           Bm7           E   
Don't cross the street in the middle in the middle
       Bm7           E             A  
In the middle in the middle in the middle of the block
      A         F#m           Bm7           E   
Don't cross the street in the middle in the middle
       Bm7           E             A  
In the middle in the middle in the middle of the block

(Key change to B flat Major)

E|-------------------------------------------------------------------------------------------|
B|-----11------------------------------------------------------------------------------------|
G|10--------10--------12-12------------------------------------------------------------------|
D|---------------12---------13-13-10-10-------10-10------------------------------------------|
A|--------------------------------------12-12-------------------------10-11-13-13-13-13-13---|
E|--------------------------------------------------13-13-13-13-13-13------------------------|

Bb   C7    F
  Use your eyes to look up!
Bb   C7    F
  Use your ears to hear!
Bb    C7  Am     Dm
  Walk up to the corner 
G7       C7       F
when the coast is clear
        F7
And wait
        F7
And wait
   F7    
Until you see the light turn green

      Bb        Gm            Cm7           F   
Don't cross the street in the middle in the middle
       Cm7           F             Bb  
In the middle in the middle in the middle of the block
      Bb        Gm            Cm7           F   
Don't cross the street in the middle in the middle
       Cm7           F             Bb  
In the middle in the middle in the middle of the block