Guitar Tab:I Can Help The Next In Line

From This Might Be A Wiki
I Can Help The Next In Line
By: They Might Be Giants
Key: C Major
Year: 2015

(Tab fixed by Zondry):

Main riff:
E|-----------------------------------------------------------------|
B|-----------------------------------------------------------------|
G|5-0-2-0------------5-0-2-0-----------5-0-2-0---------5-0-2-0---2-|
D|--------2-0----------------2-0---2-----------2-0-------------2---|
A|------------3-0----------------3-----------------3-0-------------|
E|-----------------------------------------------------------------|


During the instrumental break, and during "I am going to have to ask you now...":

D|----0-0-0-0-0-0-0-0------------------0-0-0-0-0-0-0-0-2-2-0-2-2-0-2-2-|
A|0-3----3---3---3---3-0-0-0-0-0-0-0-3----3---3---3---3----------------|
E|------------------------3---3---3------------------------------------|

(Play main riff here):
      C    Am                C  Am
I can help    the next in line
         C    Am              C  Am
Have you been    with us before?
      C    Am                C  Am
I can help    the next in line
        C     Am                C  Am
I don’t think    I like your tone

     Dm
I am going to have to ask you now
   Am
To take a walk with me
         Dm
Put your hands where I can see them
       E
I will need to see ID

(Main riff):
I can help    the next in line
Do we have    a problem here?
I can help    the next in line
If you would walk this way we'll settle this now

(Instrumental):
Dm    Am    Dm    E

(Main riff):
Have you been with us in the past? (Have you been with us in the past?)
I can help the next one in line (I can help the next one in line)
I don’t think that I like your tone (I don't think that I like your tone)
I can help the next one in line (I can help)