Guitar Tab:Hall Of Heads

From This Might Be A Wiki
Hall Of Heads
By: They Might Be Giants
Key: E Flat Major
Year: 1992
Tabbed By: Anklepants
Intro

e------------------------|------------------------|------------------------|------------------------|
B------------------------|------------------------|------------------------|------------------------|
G---------------1--------|------------------------|---------------------2--|------------------------|
D--2---------------4--2--|--0------------------4--|--2---------------------|--0------------------0--|
A------------------------|------------------------|------------------------|------------------------|
E------------------------|------------------------|------------------------|------------------------|

e------------------------|------------------------|------------------------|------------------------|
B------------------------|------------------------|------------------------|------------------------|
G---------------1--------|------------------------|------------------------|------------------------|
D--2---------------4--2--|--0------------------4--|--2------------------0--|--2---------------------|
A------------------------|------------------------|------------------------|------------------------|
E------------------------|------------------------|------------------------|------------------------|


Violin section

e------------------------|------------------------|------------------------|------------------------|
B------------------------|------------------------|------------------------|------------------------|
G---------1--------------|------------------------|------------------------|------------------------|
D---2--4-----------4--2--|--1---------------------|---1--2--4--------2--1--|------------------------|
A------------------------|------------------------|------------------------|--4---------------------|
E------------------------|------------------------|------------------------|------------------------|

e------------------------|------------------------|------------------------|------------------------|
B------------------------|------------------------|------------------------|------------------------|
G------------------------|------------------------|---1---------2----------|------------------------|
D---1--2--4--------2--1--|---2---------4----------|------------------------|---2-------1------------|
A------------------------|--------4----------4----|--------4----------4----|-------------------4----|
E------------------------|------------------------|------------------------|------------------------|


Sax riff

e------------------------|------------------------|------------------------|
B------------------------|------------------------|------------------------|
G------------------------|------------------------|------------------------|
D--------2-----2---------|---2------2-------------|---2------0-------------|
A---2---------------2----|-----------------2------|----------------1-------|
E------------------------|------------------------|------------------------|


VERSE

Bm                  A
Here in the hall of heads
Bm                  A
You look through the keyhole   etc



Bridge Inro

e------------------------|------------------------|------------------------|------------------------|
B------------------------|------------------------|------------------------|------------------------|
G------------------------|------------------------|------------------------|------------------------|
D----------------0----4--|--2---------------------|----------------0----4--|----3------2------------|
A----2----4--------------|------------------------|----2----4--------------|---------------0--0--0--|
E------------------------|------------------------|------------------------|------------------------|


Bridge Riff

e------------------------|------------------------|------------------------|------------------------|
B------------------------|------------------------|------------------------|------------------------|
G------------------------|------------------------|------------------------|------------------------|
D-------------0----4-----|---2---0----------------|------------------------|------------------------|
A--2---2--4--------------|-------------2----0-----|---4----------0---------|------------------------|
E------------------------|------------------------|------------------------|------------------------|

e------------------------|------------------------|------------------------|------------------------|
B------------------------|------------------------|------------------------|------------------------|
G------------------------|------------------------|------------------------|------------------------|
D-------------0----4-----|---2---0----------------|------------------------|------------------------|
A--2---2--4--------------|-------------2----0-----|---4----------0---------|----0------0------4-----|
E------------------------|------------------------|------------------------|------------------------|