Guitar Tab:Experimental Film

From This Might Be A Wiki
Experimental Film
By: They Might Be Giants
Key: G major
Year: 2004
G    F    C    D   Em   Am      D      G
The color of infinity inside an empty glass
     G            F         C     D      Em     Am     D         G     
I'm squinting my eye and turning off and on and on and off the light

      Em        C    D    G
It's for this experimental film
       Em      C     D        G
Which nobody knows about and which
          Em       Am         D        G
I'm still figuring out what's going to go
   C    Am   D     G
In my experimental film
C                       D             G         Am7
Yeah, you're all gonna be in this experimental film
           C             D             C              D
And even though I can't explain it I already know how great it is
 G        F        C       D        Em         Am        D       G  
I already know the ending. It's the part that makes your face implode
  G               F           C      D         Em         Am      D     G
I don't know what makes your face implode, but that's the way the movie ends
    Em       C  D      G
And in my experimental film
      Em      C      D        G
Which nobody knows about and which
          Em       Am        D       G
I'm still figuring out who's face implodes
   C     Am  D      G
In my experimental film
C                      D            G          Am7
Yeah, you're all gonna be in this experimental film
          C               D           C                D
And even though I can't explain it I already know how great it's
          C               D           C                D
And even though I can't explain it I already know how great it's

Solo:
F Eb Bb C Dm Gm C F
F Eb Bb C Dm Gm C F

e|----------------------------------------------------------------
B|-------10-------------------------------------------------------
G|-10-12----12----10--------10-9----12-10--------------------9-10-
D|-------------------12----------------------7-8----12-10---------
A|----------------------------------------------------------------
E|----------------------------------------------------------------

cont'd
e|--------------------------------------------------10-------------------
B|----10-11-13-11----10-11----10-13----11-10-----13-------13-------11-10-
G|-10--------------------------------------------------------12----------
D|-----------------------------------------------------------------------
A|-----------------------------------------------------------------------
E|-----------------------------------------------------------------------


G      F    C     D  Em   Am        D    G
  The color of infinity inside an empty glass
      Em         C   D      G
It's for this experimental film 
       Em     C    D          G
Which nobody knows about and which
          Em       Am         D        G
I'm still figuring out what's going to go
   C    Am  D      G
In my experimental film
C                      D            G          Am7
Yeah, you're all gonna be in this experimental film
          C               D
And even though I can't explain it
   C               D
I already know how great it's gonna
C                  D            G          Am
Yeah, you're gonna be in this experimental film
         C              D
And even though I can't explain it
  C                D                       
I already know how great it
     C                D
Even though I can't explain it
   C               D
I already know how great it's

End on C chord