Guitar Tab:Ampersand

From This Might Be A Wiki
Ampersand
By: They Might Be Giants
Key:
Year: 2018
INTRO:
F Dm Gm C 

INTRO RIFF:
G|---------------------2-3-5-------5----2--------------------|
D|-------2-3-------5--------------------------3--------------|
A|-3---5--------------------------------------------3--------|
E|-----------------------------------------------------1-3-5-|

G|---------------------2-3-5-------5----2--------------------|
D|-------2-3-------5------------------------2-3--------------|
A|-3---5--------------------------------------------3--------|
E|-----------------------------------------------------------|

VERSE:
Bb                   F
Notes written on the floor
F                          Bb
Words whispered through the door
Bb                  F               C
And outside corners hidden from the moon
C            Bb
And all its beams
Bb            F         
Falling on the town 
F                   Bb
With other worldly sounds 
Bb             F              C
Cicadas taking cover While we stomp around 

CHORUS:
Bb                F    
And you ampersand me   C'mon! 
Dm       Bb      F       C
Dot dot dot dot dot dot dot dot 
Bb            F
You ampersand me 
F           Dm                C
Exclamation point exclamation point
Bb F C

VERSE 2 (same chords as first verse)
Hey The home team's gone away
So now I type away
I miss the summer day alone with nothing left to write
We talk right through the night
Then morning's here and all the sun is shining down on millions more
But really it's for

CHORUS: (same chords as before)
You ampersand me
C'mon!
Dot dot dot dot dot dot dot dot
You ampersand me
Exclamation point exclamation point 

INTRO CHORDS AGAIN

LAST HALF OF CHORUS (Same chords)
You ampersand me
Exclamation point exclamation point