Guitar Tab:What Is A Shooting Star?

From This Might Be A Wiki
What Is A Shooting Star?
By: They Might Be Giants
Key: D Minor
Year: 2000
Tabbed By: Whirlwind
It's sort of Free-Time and there's some finger-picking.

e|--8-8-6-|-5-|3568\--|-1-0|--------------|------------|--------------5|
b|--6-----|-6-|4------|-2--|----5-5h6p5-3-|----3-3/5\3-|----3-3-5-2----|
g|--6-----|-7-|5------|-2--|--3-----------|--2---------|--1-------2----|
d|5-------|-x-|x------|-x--|--------------|------------|---------------|
a|--------|-5-|3------|-0--|--------------|------------|------------0--|
e|--------|-x-|x------|-x--|-3------------|-1----------|-0-------------|
  Let Ring                    Let Ring                          Let Ring

e|--5------5-|
b|-6----5--6-|
g|7----6---7-|
d|----7------|
a|-----------|
e|-----------|

 Dm     A        Dm    A
A shooting star is not a star,
      Dm    A       Dm     A
It's not a star at all:
    Dm      A        Dm Gm
A shooting star's a meteor
        Dm      A     Dm
That's heading for a fall.

And so on.