Bass Tab:Your Racist Friend

From This Might Be A Wiki
Your Racist Friend
By: They Might Be Giants
Key: G Major
Year: 1990
PRE-VERSE

G-------------
D-------------
A-------------
E---0-0-0-0---

VERSES

G-------------------------------------------------------------------------
D-------5-------------------------------5-----0-5-5-5-4-4-4-2-2-2-0-0-0---
A-----5-----3-2-0---3-2-0-0-----------5-----3-----------------------------
E---3-----3-------3---------3-2-0-2-3-----3-------------------------------
    s p p s p p p s p p p   s s s s s p p s p p                       p