Bass Tab:Vestibule

From This Might Be A Wiki
Vestibule
By: They Might Be Giants
Key: D Minor
Year: 2006
Tabbed By: Apollo
very much the same as the guitar part:
intro/verse
G|-----------------------------
D|------3-----3-----3----------
A|--5-5---5-5---5-5----5-5-----
E|-----------------------------

chorus
G|-----------------------------
D|--3-3-5---------3-3-5--------
A|---------1-1-3---------0-0---
E|-----------------------------

G|-----------------------------
D|------3-----3-----3----------
A|--5-5---5-5---5-5----5-5-----
E|-----------------------------