Bass Tab:Thunderbird

From This Might Be A Wiki
Thunderbird
By: They Might Be Giants
Key: G Major
Year: 2004

|----------------|----------------|----------------|----------------|
|0---2---4---5---|0-0-0-0-0-0-0-0-|----0---2---4---|5-5-5-5-7-7-7-7 |
|----------------|----------------|3---------------|----------------|
|----------------|----------------|----------------|----------------|

|----------------|----------------|----------------|----------------|
|--------00000000|2222222244444444|55555555--------|22222222--------|
|33333333--------|----------------|--------33333333|--------00000000|
|----------------|----------------|----------------|----------------|

|----------------|----------------|----------------|----------------|
|----------------|2---------------|5---2-------0---|5---------------|
|2---3---5---5---|-------3--------|--------3-------|--------3---0---|
|----------------|----------------|----------------|--------------3-|

     "Man oh man"
|--------|------------------------|
|0000----|------------------------|
|--------|----------------33333333|  x2
|--------|3333333300000000--------|


|--------|----------------|----------------|
|--------|--------7-777755|4444442200000000|
|0000----|3-3-3-3---------|----------------|
|--------|----------------|----------------|

|----------------|----------------|----------------|----------------|
|0---2---4---5---|7-0-0-0-0-0-000-|----0---2---4---|5-5-5-5-7-7-7-7-|
|----------------|----------------|3---------------|----------------|
|----------------|----------------|----------------|----------------|


                              "I remember now"
|----------------|----------------|----------------|----------------|
|--------00000000|2222222244444444|5555555---------|22222222--------|
|33333333--------|----------------|-------333333333|--------00000000|
|----------------|----------------|----------------|----------------|

|----------------|----------------|----------------|
|----------------|2---2-----------|5---2-------0---|
|2---3---5---5---|--------3---3---|--------3-------|
|----------------|----------------|----------------|

         (distortion if you've got it)
|--------5-4-5-7-|7---5---7---5---|
|5-0-5-----------|----------------|
|----------------|--5---5---5---5-|
|----------------|----------------|

|----------------|5---7---9---11--|----------------|
|----------------|----------------|--5-4-5-7-5-4-5-|
|5-5-5-5-5-5-5-5-|--3---5---7---9-|----------------|
|----------------|----------------|----------------|
                                                   (end distortion)

|----------------|----------------|----------------|
|--------00000000|2222222244444444|5555------------|
|33333333--------|----------------|----------------|
|----------------|----------------|----------------|


"we like fun"
|--00----9-------|--------7-------|--0-----9-------|--579-579---9\--|
|------------9\--|--0---------7---|------------9---|----------------|
|----------------|----------------|----------------|----------------|
|----------------|----------------|----------------|----------------| 
 1 & 2 & 3 & 4 &  1 & 2 & 3 & 4 &  1 & 2 & 3 & 4 &  1 & 2 & 3 & 4 &

|----------------|--------|
|----------------|--------|
|3------/12109-7-|5-------|
|----------------|--------|
         (this is twelve ten nine, if you couldn't tell)

|----------------|----------------|----------------|----------------|
|0---2---4---5---|7-0-0-0-0-0-000-|----0---2---4---|5-5-5-5-7-7-7-7-|
|----------------|----------------|3---------------|----------------|
|----------------|----------------|----------------|----------------| 

|----------------|----------------|----------------|----9---7-------|
|--------00000000|2222222244444444|5555555577777777|7---------------|
|33333333--------|----------------|----------------|----------------|
|----------------|----------------|----------------|----------------|

|----------------|----------------|----------------|----------------|
|55555555--------|22222222--------|----------------|2---------------|
|--------33333333|--------00000000|2---3---5---5---|--------3-------|
|----------------|----------------|----------------|----------------| 

|----------------|----------------|
|5---2-------0---|--------5-------|
|--------3-------|----5-----------|
|----------------|3---------------|