Bass Tab:Outboard Part Of Man

From This Might Be A Wiki
Outboard Part Of Man
By: They Might Be Giants
Key:
Year: 1990
Tabbed By: Apollo
there's not really any bass but the bassy synth goes like this:
I'm an outboard part of man...
E|-7-7-7-0-0--7-7-7-----7-7-0-0--70707070--------
A|------------------7-7--------------------------
D|-----------------------------------------------
G|----------------------------------------------- 

I'm a nightlight in the sun....
E|-7-7-7-0-0--7-7-7-----7-7-0-0--7070------------
A|------------------7-7--------------------------
D|-----------------------------------------------
G|-----------------------------------------------

I'll be ok, fine...
E|-----------------------------------------------
A|-0-0-5--0-0-0-5-5--0-0-5-0-0-0-7---------------
D|-----------------------------------------------
G|-----------------------------------------------

But don't let anybody know...
E|---------------------
A|-0-0--0-0--0-0--0-0--
D|---------------------
G|---------------------

AHH
E|--------
A|--------
D|--------
G|-1/12---