Bass Tab:Hell Hotel

From This Might Be A Wiki
Hell Hotel
By: They Might Be Giants
Key: B Minor
Year: 1985
Tabbed By: Apollo
there is some funkiness in this song that I was not able to capture entirely,
but it mostly lies along these lines.
verse
G------------------------------------|
D------------------2h4---------------|
A--2--2-2--5--2h3--------------------|
E------------------------2-2--2------| x7

G---------------------------------------|
D-------------------7-8-5-6-4-5-3-4-----|
A--2--2-2--5--2h3-----------------------|
E---------------------------------------|

chorus
G------------------------------------|
D-----------3h4-1h2-----------4-3----|
A--2-2-5-2-----------2-2-5-2---------|
E------------------------------------| x4

G------------------------------------|
D------------------------------------|
A--2-5-9-8-7-7-7-9--9-2--------------|
E------------------------------------| x4

no bass for the second verse