Bass Tab:Destination Moon

From This Might Be A Wiki
Destination Moon
By: They Might Be Giants
Key: F Major
Year: 1994
Intro

G|--------|--------|--------|--------|
D|--------|---0----|--------|--------|
A|---0----|1-------|3------0|1-0---0-|
E|1-------|--------|---3--3-|----3---|

Verse

G|--------|--------|--------|--------|
D|--------|---0--3-|--------|--------|
A|---0--3-|1-------|3------0|1-0---0-|
E|1-------|--------|---3--3-|----3---|

G|--------|--------|--------|--------|
D|--------|--/5--3-|--------|--------|
A|--/5--3-|1-------|3------0|1-0-----|
E|1-------|--------|---3--3-|----3-1-|

Chorus

"By rocket to the moon..."
G|--------|--------|--------|--------|
D|--------|--------|--------|--(0)(3)|
A|-3311-0-|3---3-3-|---0--3-|1--0----|
E|--------|--------|1-------|------3-|

"Throwing back the blanket"
G|--------|--------|--------|--------|
D|--------|--------|--------|--------|
A|-3311-0-|33-311-1|----11-1|3-1-0---|
E|--------|--------|11-1----|------3-|

Breakdown

"Soon the man who sweeps the room..."
G|--------|--------|--------|--------|
D|--------|--------|--------|--------|
A|5-------|1---3---|5-------|1---3---|
E|----3---|--------|----3---|--------|

G|--------|--------|--------|--------|
D|11-1----|----33-3|11-1----|--------|
A|--------|11-1----|--------|11-13-3-|
E|----33-3|--------|----33-3|--------|

G|--------|--------|--------|--------
D|--------|--------|--------|-03-----|
A|5--5----|1--13--3|5--5----|1--13-3-|
E|----3--3|--------|----3---|-----0--|