Bass Tab:Clap Your Hands

From This Might Be A Wiki
Clap Your Hands
By: They Might Be Giants
Key: B Flat Major
Year: 2002
Verse Riff:
G---------------------------------|
D---------0--------------0--------|
A-3-3-331---1----3-3-331---1-13333|
E---------------------------------|

Durring Verse 3 it modulates to this:
G---------------------------------|
D---------2--------------2--------|
A-5-5-553---3----5-5-553---3-35555|
E---------------------------------|


Intro:
Uh-huh
Uh-huh uh-huh

Uh-huh 
Uh-huh uh-huh
Uh-huh

Verse 1:
Clap your hands!
Clap your hands!
Clap your hands!
Clap your hands!
Clap your hands!

Verse 2:
Stomp your feet!
Stomp your feet!
Stomp your feet!
Stomp your feet!
Stomp your feet!

Verse 3:
Jump in the air!
Jump in the air!
Jump in the air!
Jump in the air!