Bass Tab:Alienation's For The Rich

From This Might Be A Wiki
Alienation's For The Rich
By: They Might Be Giants
Key: A Flat Major
Year: 1985
Comments: 12 Bar Blues: In G for verses 1&2, and in A for the last verse.
Strings: E,A,D,G
====================

Verse: Riff 1, Riff 1, Riff 2, Riff 1

Riff 1
G--------------------------|
D--------------------------|
A--------5-----------0--2--|
E--3--3-----3-----3--------|

Riff 2
G--------------------------|
D--------5-----------0--2--|
A--3--3-----3-----3--------|
E--------------------------|


Chorus:
"Alienation's for the rich..."
G--------------------------------|
D--------------------------------|
A--5~----0--2--3-----5--3--2--0--|
E--------------------------------|

                           "A-hey-hey-hey"
G-----------------------------------------|
D-----------------5--5--------------------|
A--------------------------------5--5-----|
E--3-----3--3--3-----------3--3--------3--|


Instrumental: Repeat this over and over.
G--------------|
D--------------|
A--------5--5--|
E--3--3--------|