Bass Tab:(She Was A) Hotel Detective

From This Might Be A Wiki
(She Was A) Hotel Detective
By: They Might Be Giants
Key: A Major
Year: 1986
Tabbed By: FrankEinstein
Main Riff: Intro/Chorus
G-----------------------------------------|
D-----------------0--0--------------------|
A--0--0-----0--3--------3--0--3--0-----0--|
E--------3--------------------------3-----|

Before Verse:
G-----------------------------|
D-----------------------------|
A--0--0-----------------------|
E--------0--0--0--0--0--0--0--|

Verse:
G--------------------------------------------------|
D--------------------------------------------------|
A-----5--5-----------7--7-----------5--5-----------|
E--3--------3--3--5--------5--5--3--------3--0--0--|

Intrumental:
G--------------------|
D--------------------|
A--------------------|
E--0--0--2--3--2--0--|

G--------------------------|
D--------------------------|
A--------------------------|
E--2/-3--2/-3--2/-3--2/-3--|

After these two parts, just go crazy on the next two.